Осень

Исполнитель: Спасение

Альбом: Acoustic


Каподастор на 2-й лад для соло

1| ----3---2---0-----------0---------0--------------------3/2---------0-----------------0---
2|----0------------3---3-------3--------3----3---------3--------0----------------3/5------
3|----0-----------------------------0--------0--------4-----------------------0---------------
4|----2---------------------------------------------0-------------------------------------------
5|-------------------------------3---------------------------------------------------------------
6|-------------------------------------------------------------------------0---------------------

1| ----3---2---0-----------0---------0--------------------3/2---------0-----------------0---
2|------------------3---3-------3--------3----3---------3--------0----------------3/5------
3|-----------------------------------0--------0--------4-----------------------0---------------
4|---------------------------------------------------0-------------------------------------------
5|-------------------------------3---------------------------------------------------------------
6|-----0--------------------------------------------------------------------0---------------------

1 куплет:
F#m D E F#m
В городе тихая осень, первые дни октября.
F#m D E F#m
Клён как-то листья сбросил и стала другой земля.
F#m D E F#m
Оделась она царицей всего на несколько дней.
F#m D E F#m
Но как просветлели лица у проходящих людей.

Припев:
D E F#m A
Осень, красивую осень, Бог подарил земле.
D E F#m
Осень, красивую осень, я попросил себе.
D E A E/G# F#m
Осень, красивую осень, Бог подарил земле.
Hm C#m F#m
Осень, красивую осень, я попросил себе.

2 куплет:
D E F#m A
Бог так одевает лилию, цветущую несколько дней
D E F#m A
Что Соломон великий меркнет при славе своей.
D E F#m A
Но верных одел Бог лучше в праведной жизни своей
D E F#m
Чтоб просветлели души рядом идущих людей.

Концовка:
F#m D E F#m
В городе тихая осень, первые дни октября.
F#m D E F#m
Клён как-то листья сбросил и стала другой земля.
  • 96.315789473684
  • 1
  • 2
  • 3
  • 4
  • 5
4.82
Поделиться!
Заметили ошибку в тексте или в аккордах, теперь вы можете отредактировать любой материал на сайте. Нажимайте редактировать возле названия песни и внесите поправки, а модераторы проверят и одобрят ваши изменения. Спасибо что будете нам помогать становиться лучше.
0

Комментарии к песне



Обязательные поля помечены *

    Комментариев нет