А помнишь

Исполнитель: Сергей Осинцев

Альбом: Без альбома


1| ----- 7--7------7--7------7--7------0--0---------2----2-
2| --- 0---------0----------0---------2-----------0--------
3| - 0----0---0-----0-----0---0----3----3------2------2----
4| --------------------------------------------------------
5| 7--------6-----------5----------4----------2------------
6| --------------------------------------------------------

1 куплет:
Am H7 Em C
Пройдут дожди и солнца яркий свет
Am7 H7 Em
Разгонит тучи, ты увидишь новый день
Am H7 Em Cmaj7
Ты только жди и в своем сердце веру сохрани
Am7 H7 Em
Сделай шаг на встречу свету и любви

Припев:
Am H7 Em C
А помнишь ветер наполнил парус твой
Am H7 Em C
А помнишь солнце согревало, светило над тобой
Am H7 Em C
А помнишь звезды ночью темной освещали путь
Am7 F#m H7 Cmaj7
Знаешь, Бог хранит тебя, мой друг

1| -3---5---7--------------------
2| --------------------------------
3| --------------------------------
4| --------------------------------
5| -3---5---7--------------------
6| --------------------------------

2 куплет:
Нас манит небо, величием своим
Я все отдам, чтобы быть всегда Твоим
Так жаждет сердце истины Твоей
От суеты, оставив все, подняться вверх

3 куплет:
Я вижу много, много серых туч
Не обещаю, что эти ливни не пройдут
Но в этой мгле, дай услышать голос Твой
Ты скажешь сердцу “Я с тобой”

Припев:
Am H7 Em C
Наполнит ветер о белый парус мой
Am7 H7 Em
Пускай сияет, солнце надо мной
Am H7 Em C
И звезды ночью, мне укажут путь
Am7 F#m H7
Я не сверну, ведь рядом Ты.
Cmaj7
Я не боюсь.
5
Поделиться!
Заметили ошибку в тексте или в аккордах, теперь вы можете отредактировать любой материал на сайте. Нажимайте редактировать возле названия песни и внесите поправки, а модераторы проверят и одобрят ваши изменения. Спасибо что будете нам помогать становиться лучше.
Добавить комментарий к песне "А помнишь":

Обязательные поля помечены *