Hillsong Ukraine - Я сдаюсь Бог

Я сдаюсь Бог

1 куплет:
Dm F
Здесь опять я преклоню себя
C Bb
Тебе все отдам, Тебе все отдам
Dm F
К Себе сейчас, Бог, приближай меня
C Bb
Отчаянно я жажду Тебя

Dm F C Bb
Я сдаюсь, Бог

2 куплет:
Голод мой Своей благодатью, Бог
Сейчас утоли, мой дух напои
Тянусь душой, верю, крик слышишь мой
Прошу, говори, со мной говори

Припев:
Dm F
Я сдаюсь, Бог, я сдаюсь, Бог
Gm Bb
Чтобы познать Тебя, ещё больше знать Тебя

Бридж:
Bb F C
Сильным ветром Ты во мне, Иисус, дыши
Gm Dm C
В жизни моей волей Своей, правь Ты
Bb F C
Словно мощный шторм, потряси меня, Бог
Gm Dm C
В жизни моей волей Своей правь Ты

ТАБЫ:
part 1) x2
1|---------1---1------------1---1---------1---1--------------------------|
2|---------------------------------------------------5-3-1-----------------|
3|---2------2---------2------2--------2----2-----------------------------|

part 2)
1|---------1---1------------1---1---------1---1--------------------------|
2|---------------------------------------------------5-3-1-----------------|
3|---0------0---------0------0--------0----0-----------------------------|

part 3)
1|---------1---1------------1---1---------1---1--------------------------|
2|---------------------------------------------------5-3-1-----------------|
3|---3------3---------3------3--------3----3-----------------------------|


Теперь для гитары соло.
Bb F
1|---- 10---13-12-10 -------- |------------13-12-10 ---------|
2|-11 ------------------13-11- |-10-13--------------- 13-10- |
3|--------------------------------|----------------------------------|
C
1|-----------13-12-10 ---------|------------ 13-12-10----------|
2|---- 13---------------13-10 -|-----13 ----------------13-10- |
3|-12----------------------------|-12 -----------------------------|

Gm Dm C
1|---- 10---13-12-10 -------- |------------13-12-10 ---------|---- 12t--13t--15-- |
2|-11 ------------------13-11- |-10-13--------------- 13-10- |
3|--------------------------------|----------------------------------|
Влад Фонки 83808 просмотров 7674 прослушивания 2385 скачиваний BPM: 154

Перевод песни

Русский Преклоняюсь
New Beginnings Church
Английский I Surrender
Hillsong United
Английский I Surrender (Remix [Bonus Track])
Hillsong Young & Free
Испанский A Ti Me Rindo
Hillsong Worship
Русский Я сдаюсь
Краеугольный камень г. Иркутск
Белорусский Я скараюсь
Ян Прадвесьнік царква
Украинский Підкоряюсь
Любов і зцілення церква
Украинский Підкоряюсь
D.Worship
Русский Сокрушаюсь
Исход Ростов на Дону
Русский Я склоняюсь
Gracetime Worship Band
1

Комментарии к песне

зоряна 22:47 11.07.2016
Бог ето мой насоящий друг, с которым я могу поговорить и он меня всекда поймет!!!

Форма входа

Список альбомов

Царь Царей - single
Hillsong Ukraine
1 песня / 2020 г.
Я знаю кто я в Тебе
Hillsong Ukraine
12 песен / 2019 г.
Открытые небеса (Живая вода)
Hillsong Ukraine
8 песен / 2017 г.
Да будет свет
Hillsong Ukraine
8 песен / 2017 г.
Нет Другого Имени
Hillsong Ukraine
5 песен / 2014 г.
Океаны
Hillsong Ukraine
12 песен / 2014 г.
Ритм благодати
Hillsong Ukraine
10 песен / 2012 г.
Global Project Russian
Hillsong Ukraine
2 песни / 2012 г.
Неразделимы
Hillsong Ukraine
11 песен / 2010 г.
Бог Есть Любовь
Hillsong Ukraine
11 песен / 2010 г.
Это наш Царь
Hillsong Ukraine
16 песен / 2009 г.
Алтарь
Hillsong Ukraine
14 песен / 2008 г.
Господь всего
Hillsong Ukraine
14 песен / 2007 г.
Сверхъестественный Бог
Hillsong Ukraine
10 песен / 2007 г.
Спасение
Hillsong Ukraine
12 песен / 2006 г.
Суперcильный Бог
Hillsong Ukraine
12 песен / 2006 г.
Это мой дом
Hillsong Ukraine
15 песен / 2006 г.
Слава в Вышних
Hillsong Ukraine
17 песен / 2005 г.
Иисус мой Супергерой
Hillsong Ukraine
10 песен / 2005 г.
Пожар
Hillsong Ukraine
14 песен / 2004 г.
Царь Величия
Hillsong Ukraine
14 песен / 2002 г.
Лучший Друг
Hillsong Ukraine
14 песен / 2001 г.
Революция
Hillsong Ukraine
11 песен / 2001 г.
Небеса на земле
Hillsong Ukraine
14 песен / 2000 г.
План
Hillsong Ukraine
10 песен / 1999 г.
С Богом возможно всё
Hillsong Ukraine
14 песен / 1998 г.
Прыгай в небеса
Hillsong Ukraine
3 песни / 1998 г.
Это знает душа моя
Hillsong Ukraine
12 песен / 1997 г.
Пламя
Hillsong Ukraine
1 песня / г.
Мы будем славить
Hillsong Ukraine
2 песни / г.